ISO-10303-21;
HEADER;
FILE_DESCRIPTION (( 'STEP AP214' ),
    '1' );
FILE_NAME ('GCC-411213.STEP',
    '2020-02-15T10:10:26',
    ( 'China' ),
    ( 'Microsoft' ),
    'SwSTEP 2.0',
    'SolidWorks 2018',
    '' );
FILE_SCHEMA (( 'AUTOMOTIVE_DESIGN' ));
ENDSEC;

DATA;
#1 = DIRECTION ( 'NONE',  ( -1.000000000000000000, 0.0000000000000000000, 0.0000000000000000000 ) ) ;
#2 = EDGE_LOOP ( 'NONE', ( #38, #117 ) ) ;
#3 = DIRECTION ( 'NONE',  ( 0.0000000000000000000, 0.0000000000000000000, 1.000000000000000000 ) ) ;
#4 = PRODUCT_RELATED_PRODUCT_CATEGORY ( 'part', '', ( #43 ) ) ;
#5 = CIRCLE ( 'NONE', #140, 25.39999999999999858 ) ;
#6 = SURFACE_SIDE_STYLE ('',( #21 ) ) ;
#7 = DIRECTION ( 'NONE',  ( 0.0000000000000000000, 0.0000000000000000000, 1.000000000000000000 ) ) ;
#8 = MECHANICAL_DESIGN_GEOMETRIC_PRESENTATION_REPRESENTATION (  '', ( #47 ), #118 ) ;
#9 = ORIENTED_EDGE ( 'NONE', *, *, #81, .F. ) ;
#10 = ORIENTED_EDGE ( 'NONE', *, *, #77, .T. ) ;
#11 = AXIS2_PLACEMENT_3D ( 'NONE', #122, #35, #91 ) ;
#12 = CARTESIAN_POINT ( 'NONE',  ( -25.40000000000000924, 50.79999999999999716, 6.886987545090589968 ) ) ;
#13 = ORIENTED_EDGE ( 'NONE', *, *, #86, .F. ) ;
#14 = FILL_AREA_STYLE_COLOUR ( '', #89 ) ;
#15 =( GEOMETRIC_REPRESENTATION_CONTEXT ( 3 ) GLOBAL_UNCERTAINTY_ASSIGNED_CONTEXT ( ( #49 ) ) GLOBAL_UNIT_ASSIGNED_CONTEXT ( ( #27, #37, #127 ) ) REPRESENTATION_CONTEXT ( 'NONE', 'WORKASPACE' ) );
#16 = FILL_AREA_STYLE ('',( #83 ) ) ;
#17 = PRESENTATION_STYLE_ASSIGNMENT (( #115 ) ) ;
#18 = VERTEX_POINT ( 'NONE', #104 ) ;
#19 = SURFACE_STYLE_USAGE ( .BOTH. , #6 ) ;
#20 = CIRCLE ( 'NONE', #34, 25.39999999999999858 ) ;
#21 = SURFACE_STYLE_FILL_AREA ( #16 ) ;
#22 = CARTESIAN_POINT ( 'NONE',  ( 25.39999999999999858, 3.110602869834276865E-15, 6.000000000000000000 ) ) ;
#23 = CARTESIAN_POINT ( 'NONE',  ( -25.39999999999999858, -50.79999999999999716, 3.339037364728229651 ) ) ;
#24 =( LENGTH_UNIT ( ) NAMED_UNIT ( * ) SI_UNIT ( .MILLI., .METRE. ) );
#25 = AXIS2_PLACEMENT_3D ( 'NONE', #95, #7, #62 ) ;
#26 = AXIS2_PLACEMENT_3D ( 'NONE', #36, #111, #109 ) ;
#27 =( LENGTH_UNIT ( ) NAMED_UNIT ( * ) SI_UNIT ( .MILLI., .METRE. ) );
#28 = CLOSED_SHELL ( 'NONE', ( #44, #87, #65, #135 ) ) ;
#29 = AXIS2_PLACEMENT_3D ( 'NONE', #41, #136, #58 ) ;
#30 = LINE ( 'NONE', #102, #33 ) ;
#31 = EDGE_LOOP ( 'NONE', ( #61, #131, #74, #126 ) ) ;
#32 =( BOUNDED_CURVE ( )  B_SPLINE_CURVE ( 3, ( #57, #12, #90, #110 ),
 .UNSPECIFIED., .F., .T. ) 
 B_SPLINE_CURVE_WITH_KNOTS ( ( 4, 4 ),
 ( 1.570796326794896558, 4.712388980384689674 ),
 .UNSPECIFIED. ) 
 CURVE ( )  GEOMETRIC_REPRESENTATION_ITEM ( )  RATIONAL_B_SPLINE_CURVE ( ( 1.000000000000000000, 0.3333333333333333703, 0.3333333333333333703, 1.000000000000000000 ) ) 
 REPRESENTATION_ITEM ( '' )  );
#33 = VECTOR ( 'NONE', #103, 1000.000000000000000 ) ;
#34 = AXIS2_PLACEMENT_3D ( 'NONE', #114, #54, #112 ) ;
#35 = DIRECTION ( 'NONE',  ( -0.0000000000000000000, -0.0000000000000000000, -1.000000000000000000 ) ) ;
#36 = CARTESIAN_POINT ( 'NONE',  ( 0.0000000000000000000, 0.0000000000000000000, 0.0000000000000000000 ) ) ;
#37 =( NAMED_UNIT ( * ) PLANE_ANGLE_UNIT ( ) SI_UNIT ( $, .RADIAN. ) );
#38 = ORIENTED_EDGE ( 'NONE', *, *, #52, .F. ) ;
#39 = PRODUCT_CONTEXT ( 'NONE', #93, 'mechanical' ) ;
#40 =( NAMED_UNIT ( * ) SI_UNIT ( $, .STERADIAN. ) SOLID_ANGLE_UNIT ( ) );
#41 = CARTESIAN_POINT ( 'NONE',  ( -50.00000000000000000, -25.43167759485687185, 4.224918703830770284 ) ) ;
#42 = EDGE_LOOP ( 'NONE', ( #76, #130, #10, #13 ) ) ;
#43 = PRODUCT ( 'GCC-411213', 'GCC-411213', '', ( #39 ) ) ;
#44 = ADVANCED_FACE ( 'NONE', ( #123 ), #101, .T. ) ;
#45 = FACE_OUTER_BOUND ( 'NONE', #2, .T. ) ;
#46 = PLANE ( 'NONE',  #26 ) ;
#47 = STYLED_ITEM ( 'NONE', ( #63 ), #128 ) ;
#48 = EDGE_LOOP ( 'NONE', ( #9, #98 ) ) ;
#49 = UNCERTAINTY_MEASURE_WITH_UNIT (LENGTH_MEASURE( 1.000000000000000082E-05 ), #27, 'distance_accuracy_value', 'NONE');
#50 = CARTESIAN_POINT ( 'NONE',  ( 25.39999999999999858, 3.110602869834276865E-15, 5.113012454909410032 ) ) ;
#51 = CYLINDRICAL_SURFACE ( 'NONE', #96, 25.39999999999999858 ) ;
#52 = EDGE_CURVE ( 'NONE', #108, #94, #32, .T. ) ;
#53 = PRESENTATION_LAYER_ASSIGNMENT (  '', '', ( #47 ) ) ;
#54 = DIRECTION ( 'NONE',  ( 0.0000000000000000000, 0.0000000000000000000, 1.000000000000000000 ) ) ;
#55 = CARTESIAN_POINT ( 'NONE',  ( 0.0000000000000000000, 0.0000000000000000000, 0.0000000000000000000 ) ) ;
#56 = PRODUCT_DEFINITION_CONTEXT ( 'detailed design', #73, 'design' ) ;
#57 = CARTESIAN_POINT ( 'NONE',  ( -25.39999999999999858, 0.0000000000000000000, 5.113012454909410032 ) ) ;
#58 = DIRECTION ( 'NONE',  ( 0.0000000000000000000, 0.9993908270190954291, 0.03489949670250874075 ) ) ;
#59 =( LENGTH_UNIT ( ) NAMED_UNIT ( * ) SI_UNIT ( .MILLI., .METRE. ) );
#60 = SURFACE_STYLE_FILL_AREA ( #72 ) ;
#61 = ORIENTED_EDGE ( 'NONE', *, *, #84, .F. ) ;
#62 = DIRECTION ( 'NONE',  ( 1.000000000000000000, 0.0000000000000000000, 0.0000000000000000000 ) ) ;
#63 = PRESENTATION_STYLE_ASSIGNMENT (( #19 ) ) ;
#64 = FACE_OUTER_BOUND ( 'NONE', #48, .T. ) ;
#65 = ADVANCED_FACE ( 'NONE', ( #64 ), #46, .F. ) ;
#66 = PRODUCT_DEFINITION ( 'Î´Öª', '', #132, #56 ) ;
#67 = CARTESIAN_POINT ( 'NONE',  ( 25.40000000000000924, -50.79999999999999716, 3.339037364728229651 ) ) ;
#68 = PRESENTATION_LAYER_ASSIGNMENT (  '', '', ( #120 ) ) ;
#69 = CARTESIAN_POINT ( 'NONE',  ( -25.39999999999999858, 0.0000000000000000000, 0.0000000000000000000 ) ) ;
#70 = APPLICATION_PROTOCOL_DEFINITION ( 'draft international standard', 'automotive_design', 1998, #93 ) ;
#71 =( NAMED_UNIT ( * ) SI_UNIT ( $, .STERADIAN. ) SOLID_ANGLE_UNIT ( ) );
#72 = FILL_AREA_STYLE ('',( #14 ) ) ;
#73 = APPLICATION_CONTEXT ( 'automotive_design' ) ;
#74 = ORIENTED_EDGE ( 'NONE', *, *, #86, .T. ) ;
#75 = SHAPE_DEFINITION_REPRESENTATION ( #137, #128 ) ;
#76 = ORIENTED_EDGE ( 'NONE', *, *, #52, .T. ) ;
#77 = EDGE_CURVE ( 'NONE', #18, #79, #20, .T. ) ;
#78 = FACE_OUTER_BOUND ( 'NONE', #31, .T. ) ;
#79 = VERTEX_POINT ( 'NONE', #69 ) ;
#80 = CARTESIAN_POINT ( 'NONE',  ( -25.39999999999999858, 0.0000000000000000000, 5.113012454909410032 ) ) ;
#81 = EDGE_CURVE ( 'NONE', #79, #18, #5, .T. ) ;
#82 = DIRECTION ( 'NONE',  ( -0.0000000000000000000, -0.0000000000000000000, -1.000000000000000000 ) ) ;
#83 = FILL_AREA_STYLE_COLOUR ( '', #113 ) ;
#84 = EDGE_CURVE ( 'NONE', #94, #18, #139, .T. ) ;
#85 = PLANE ( 'NONE',  #29 ) ;
#86 = EDGE_CURVE ( 'NONE', #108, #79, #30, .T. ) ;
#87 = ADVANCED_FACE ( 'NONE', ( #78 ), #51, .T. ) ;
#88 = EDGE_CURVE ( 'NONE', #94, #108, #124, .T. ) ;
#89 = COLOUR_RGB ( '',0.9411764705882352811, 0.9607843137254902244, 0.9686274509803921573 ) ;
#90 = CARTESIAN_POINT ( 'NONE',  ( 25.39999999999998792, 50.79999999999999716, 6.886987545090589968 ) ) ;
#91 = DIRECTION ( 'NONE',  ( -1.000000000000000000, 0.0000000000000000000, 0.0000000000000000000 ) ) ;
#92 = DIRECTION ( 'NONE',  ( -0.0000000000000000000, -0.0000000000000000000, -1.000000000000000000 ) ) ;
#93 = APPLICATION_CONTEXT ( 'automotive_design' ) ;
#94 = VERTEX_POINT ( 'NONE', #50 ) ;
#95 = CARTESIAN_POINT ( 'NONE',  ( 0.0000000000000000000, 0.0000000000000000000, 0.0000000000000000000 ) ) ;
#96 = AXIS2_PLACEMENT_3D ( 'NONE', #133, #82, #1 ) ;
#97 = APPLICATION_PROTOCOL_DEFINITION ( 'draft international standard', 'automotive_design', 1998, #73 ) ;
#98 = ORIENTED_EDGE ( 'NONE', *, *, #77, .F. ) ;
#99 = VECTOR ( 'NONE', #92, 1000.000000000000000 ) ;
#100 = MECHANICAL_DESIGN_GEOMETRIC_PRESENTATION_REPRESENTATION (  '', ( #120 ), #107 ) ;
#101 = CYLINDRICAL_SURFACE ( 'NONE', #11, 25.39999999999999858 ) ;
#102 = CARTESIAN_POINT ( 'NONE',  ( -25.39999999999999858, 0.0000000000000000000, 6.000000000000000000 ) ) ;
#103 = DIRECTION ( 'NONE',  ( -0.0000000000000000000, -0.0000000000000000000, -1.000000000000000000 ) ) ;
#104 = CARTESIAN_POINT ( 'NONE',  ( 25.39999999999999858, 3.110602869834276865E-15, 0.0000000000000000000 ) ) ;
#105 =( NAMED_UNIT ( * ) PLANE_ANGLE_UNIT ( ) SI_UNIT ( $, .RADIAN. ) );
#106 =( NAMED_UNIT ( * ) PLANE_ANGLE_UNIT ( ) SI_UNIT ( $, .RADIAN. ) );
#107 =( GEOMETRIC_REPRESENTATION_CONTEXT ( 3 ) GLOBAL_UNCERTAINTY_ASSIGNED_CONTEXT ( ( #138 ) ) GLOBAL_UNIT_ASSIGNED_CONTEXT ( ( #59, #106, #71 ) ) REPRESENTATION_CONTEXT ( 'NONE', 'WORKASPACE' ) );
#108 = VERTEX_POINT ( 'NONE', #119 ) ;
#109 = DIRECTION ( 'NONE',  ( 1.000000000000000000, 0.0000000000000000000, -0.0000000000000000000 ) ) ;
#110 = CARTESIAN_POINT ( 'NONE',  ( 25.39999999999999858, 3.110602869834276865E-15, 5.113012454909410032 ) ) ;
#111 = DIRECTION ( 'NONE',  ( 0.0000000000000000000, 0.0000000000000000000, 1.000000000000000000 ) ) ;
#112 = DIRECTION ( 'NONE',  ( 1.000000000000000000, 0.0000000000000000000, 0.0000000000000000000 ) ) ;
#113 = COLOUR_RGB ( '',0.9411764705882352811, 0.9607843137254902244, 0.9686274509803921573 ) ;
#114 = CARTESIAN_POINT ( 'NONE',  ( 0.0000000000000000000, 0.0000000000000000000, 0.0000000000000000000 ) ) ;
#115 = SURFACE_STYLE_USAGE ( .BOTH. , #125 ) ;
#116 = UNCERTAINTY_MEASURE_WITH_UNIT (LENGTH_MEASURE( 1.000000000000000082E-05 ), #24, 'distance_accuracy_value', 'NONE');
#117 = ORIENTED_EDGE ( 'NONE', *, *, #88, .F. ) ;
#118 =( GEOMETRIC_REPRESENTATION_CONTEXT ( 3 ) GLOBAL_UNCERTAINTY_ASSIGNED_CONTEXT ( ( #116 ) ) GLOBAL_UNIT_ASSIGNED_CONTEXT ( ( #24, #105, #40 ) ) REPRESENTATION_CONTEXT ( 'NONE', 'WORKASPACE' ) );
#119 = CARTESIAN_POINT ( 'NONE',  ( -25.39999999999999858, 0.0000000000000000000, 5.113012454909410032 ) ) ;
#120 = STYLED_ITEM ( 'NONE', ( #17 ), #129 ) ;
#121 = CARTESIAN_POINT ( 'NONE',  ( 25.39999999999999858, 3.110602869834276865E-15, 5.113012454909410032 ) ) ;
#122 = CARTESIAN_POINT ( 'NONE',  ( 0.0000000000000000000, 0.0000000000000000000, 6.000000000000000000 ) ) ;
#123 = FACE_OUTER_BOUND ( 'NONE', #42, .T. ) ;
#124 =( BOUNDED_CURVE ( )  B_SPLINE_CURVE ( 3, ( #121, #67, #23, #80 ),
 .UNSPECIFIED., .F., .F. ) 
 B_SPLINE_CURVE_WITH_KNOTS ( ( 4, 4 ),
 ( 4.712388980384689674, 7.853981633974482790 ),
 .UNSPECIFIED. ) 
 CURVE ( )  GEOMETRIC_REPRESENTATION_ITEM ( )  RATIONAL_B_SPLINE_CURVE ( ( 1.000000000000000000, 0.3333333333333333703, 0.3333333333333333703, 1.000000000000000000 ) ) 
 REPRESENTATION_ITEM ( '' )  );
#125 = SURFACE_SIDE_STYLE ('',( #60 ) ) ;
#126 = ORIENTED_EDGE ( 'NONE', *, *, #81, .T. ) ;
#127 =( NAMED_UNIT ( * ) SI_UNIT ( $, .STERADIAN. ) SOLID_ANGLE_UNIT ( ) );
#128 = ADVANCED_BREP_SHAPE_REPRESENTATION ( 'GCC-411213', ( #129, #25 ), #15 ) ;
#129 = MANIFOLD_SOLID_BREP ( 'ÇÐ³ý-À­Éì1', #28 ) ;
#130 = ORIENTED_EDGE ( 'NONE', *, *, #84, .T. ) ;
#131 = ORIENTED_EDGE ( 'NONE', *, *, #88, .T. ) ;
#132 = PRODUCT_DEFINITION_FORMATION_WITH_SPECIFIED_SOURCE ( 'ÈÎºÎ', '', #43, .NOT_KNOWN. ) ;
#133 = CARTESIAN_POINT ( 'NONE',  ( 0.0000000000000000000, 0.0000000000000000000, 6.000000000000000000 ) ) ;
#134 = DIRECTION ( 'NONE',  ( 1.000000000000000000, 0.0000000000000000000, 0.0000000000000000000 ) ) ;
#135 = ADVANCED_FACE ( 'NONE', ( #45 ), #85, .F. ) ;
#136 = DIRECTION ( 'NONE',  ( 0.0000000000000000000, 0.03489949670250874075, -0.9993908270190954291 ) ) ;
#137 = PRODUCT_DEFINITION_SHAPE ( 'NONE', 'NONE',  #66 ) ;
#138 = UNCERTAINTY_MEASURE_WITH_UNIT (LENGTH_MEASURE( 1.000000000000000082E-05 ), #59, 'distance_accuracy_value', 'NONE');
#139 = LINE ( 'NONE', #22, #99 ) ;
#140 = AXIS2_PLACEMENT_3D ( 'NONE', #55, #3, #134 ) ;
ENDSEC;
END-ISO-10303-21;
